» » »

Eels Bass tabs (ver.1)

Artists:  A B C D E F G H I J K L M N O P Q R S T U V W X Y Z # 

Eels Bass tabs (ver.1)

The Mighty Boosh
Rating:
0/5 (0 votes)

Tabs too difficult? Try these video lessons and learn fast.
                                                          EELS - MIGHTY BOOSH
couldn't find a proper tab for this so here is my version of the song eels by the 
mighty boosh. enjoy :D
intro

Eels up inside ya Findin an entrance where they can x2

no bass

Boring through your mind, through your tummy, through your anus!

Eels!
E|----------------(4)--------|
A|-----(6)(6)----------------|
D|--------------2------------|x2
G|----4----------------------|

E|---------------------------|
A|---------------------------|
D|------------2--------------|x7
G|----4----------------------|

One foot in the grave
E|---------------------------|
A|---------------------------|
D|------------2--------------|
G|----4----------------------|  or

(Live)
E|---------------------------|
A|---------------------------|
D|-----------2---------------|
G|----4-4-44-----------------|

Main Riff (I was obselete...)
E|----------------------------|
A|----------------------------|
D|-------2-2-----5------------|
G|----4-------4---------------|

And thats it. its a great song and i hope this tab can come in handy ;)
            
Tabs too difficult? Try these video lessons and learn fast.




comments powered by Disqus
↑ Back to top | Tablatures and chords are parodies/interpretations of the original songs. You may use it for private study, scholarship, research or language learning purposes only