» » »

Theme Songs, Voltes V Opening Theme Song Bass tabs (ver.1)

Artists:  A B C D E F G H I J K L M N O P Q R S T U V W X Y Z # 

Voltes V Opening Theme Song Bass tabs (ver.1)

Theme Songs Tabs
 Rating:
4/5 (4 votes)
Voltes V Opening Theme Song lessons Tabs too difficult? Try these video lessons and learn fast
                symbols used:
h: hammer on
\: slide 
~: sustain note

beat: 2/4

This song has some cool basslines.  


Intro:
G ----------------------------------------------------------------------
D ----------------13----------------------------------------------------
A -13h15-15-13h15----15--------------------------3-----3-----3-----3----
E ----------------------11h13-13-11h13\15-15-15-----3-----3-----3-----3-

Verse:
G -----------------------------------------------------------------
D ----------------------------0------------------------------------
A --3-----3--------3-----3-------2-2-3-5-3-----3-----3-----3-----3-
E -----3-----3--1-----1-----3---------------3-----3-----1-----1----

G ----------------------------------
D ----------------------------------
A --3-----3-----5-----5-----3-----3-
E -----3-----3-----3-----3-----3----

bridge:
G --------------------------------------------------------------------
D --------------------------------------------------------------------
A --3-2-1~------5-6~-------6-5~--5-7-9-10~--11-------11-10-10-------2-
E ----------6-8--------8-6----------------------9\11----------3--5----

chorus:
G ----------------------------------------------------------------
D ------------------------------------------------0-1-------------
A --3-----3-----3-----3--------3-----3--3-----3-3---------3-----3-
E -----3-----3-----3-----3--1-----1--------3-----------1-----1----

G --------------------------------------------------------------------------
D ---------------------------------------------------------------5----------
A --3-----3-----5---5-6-5-5-5-5--5-6-5-3-----3-3-5-6----6-----6-----5---2-3-
E -----3-----3----5-----------------------3----------4-----4----------3-----


interlude:
G ----------------------------------------------------
D ----------------------------------------------------
A --3-----1--------6-----------3-----3-----3-----3----
E -----3-----1--4-----4--3--3-----3-----3-----3-----3-   

outro: 
G -----------------------------------------------------
D -------------------------3---------------------------
A --------6----------1-1-1----1--1-1--1--1--3--1--1--3-
E --4-4-4----4--4-4------------------------------------
            
Submit corrections

comments powered by Disqus
↑ Back to top | Theme Songs Bass for Voltes V Opening Theme Song. Lyrics for acoustic guitar and electric guitar. Tablatures and chords are parodies/interpretations of the original songs. You may use it for private study, scholarship, research or language learning purposes only