» » »

Theme Songs, Strongbad - Trogdor Tabs (ver.1)

Artists:  A B C D E F G H I J K L M N O P Q R S T U V W X Y Z # 

Strongbad - Trogdor Tabs (ver.1)

Theme Songs Tabs
 Rating:
4/5 (4 votes)
Strongbad - Trogdor lessons Tabs too difficult? Try these video lessons and learn fast
                Tuning: Drop D (DADGBe)




Main Riff / Chorus (2x):

e|------------------------------------------------------
B|------------------------------------------------------
G|------------------------------------------------------
D|--0-0-0-0--8--0-0-0-0--5--0-0-0-0-8-0-5-0-3/5---------
A|--0-0-0-0--8--0-0-0-0--5--0-0-0-0-8-0-5-0-3/5---------
D|--0-0-0-0--8--0-0-0-0--5--0-0-0-0-8-0-5-0-3/5---------



Verse 1 (2x):

e|----------------------------8/10-10-------------------
B|--10-8-6-8-6-----10-8-10-8----------------------------
G|--------------7---------------------------------------
D|------------------------------------------------------
A|------------------------------------------------------
D|------------------------------------------------------


Chorus (2x):

e|------------------------------------------------------
B|------------------------------------------------------
G|------------------------------------------------------
D|--0-0-0-0--8--0-0-0-0--5--0-0-0-0-8-0-5-0-3/5---------
A|--0-0-0-0--8--0-0-0-0--5--0-0-0-0-8-0-5-0-3/5---------
D|--0-0-0-0--8--0-0-0-0--5--0-0-0-0-8-0-5-0-3/5---------



Verse 2:

e|------------------------------------------------------
B|------------------------------------------------------
G|------------------------------------------------------
D|--0-3/5-0-3/5-0-3/5-5--5--0-3/5-0-3/5-0-3/5-0-3/5-5---
A|--0-3/5-0-3/5-0-3/5-5--5--0-3/5-0-3/5-0-3/5-0-3/5-5---
D|--0-3/5-0-3/5-0-3/5-5--5--0-3/5-0-3/5-0-3/5-0-3/5-5---


e|------------------------------------------------------
B|------------------------------------------------------
G|------------------------------------------------------
D|--0-3/5-0-3/5-0-3/5-0-3/5-5--0-3/5-0-3/5-0-3/5-0-3/5-5
A|--0-3/5-0-3/5-0-3/5-0-3/5-5--0-3/5-0-3/5-0-3/5-0-3/5-5
D|--0-3/5-0-3/5-0-3/5-0-3/5-5--0-3/5-0-3/5-0-3/5-0-3/5-5


Chorus (2X):

e|------------------------------------------------------
B|------------------------------------------------------
G|------------------------------------------------------
D|--0-0-0-0-8--0-0-0-0-5--0-0-0-0-8-0-5-0-3/5-5---------
A|--0-0-0-0-8--0-0-0-0-5--0-0-0-0-8-0-5-0-3/5-5---------
D|--0-0-0-0-8--0-0-0-0-5--0-0-0-0-8-0-5-0-3/5-5---------






***. First tab ever! Enjoy.
            
Submit corrections

comments powered by Disqus
↑ Back to top | Theme Songs Tabs for Strongbad - Trogdor. Lyrics for acoustic guitar and electric guitar. Tablatures and chords are parodies/interpretations of the original songs. You may use it for private study, scholarship, research or language learning purposes only