» » »

Shrek Bass tabs (ver.1)

Artists:  A B C D E F G H I J K L M N O P Q R S T U V W X Y Z # 

Shrek Bass tabs (ver.1)

Theme Songs
Rating:
0/5 (0 votes)

Hard to play? Try these video lessons and learn fast.
                G)--------------0-----------0---------------------
D)----0----3----------------------3-------0------

G)--------------------0-----------3----2--------------
D)-------0------3----------------------------3-----0—

G)------------------0----------0------------------------
D)-----0-----3--------------------------3-------0------

G)-----------------0-----3--2----------------------------
D)-----0-----3--------------------3----0-----------------

And that’s the song I know its right because I was playing along with the movie
p.s. wheeeeeeeeeeeeeeeeeeeeeeeeeeeeeeeee
            
Hard to play? Try these video lessons and learn fast. | Correct




comments powered by Disqus
↑ Back to top | Tablatures and chords are parodies/interpretations of the original songs. You may use it for private study, scholarship, research or language learning purposes only