» » »

Shaft Bass tabs (ver.1)

Artists:  A B C D E F G H I J K L M N O P Q R S T U V W X Y Z # 

Shaft Bass tabs (ver.1)

Theme Songs
Rating:
0/5 (0 votes)

Hard to play? Try these video lessons and learn fast.
                (Theme)
Riff 1:
g:----------------------------------------|
d:----------------------------------------|
a:8---------8--------7---------------5-7-8|
e:----------------------------0-----------|



Riff 2:
g:-------------------------|
d:----5-------5------5-----|
a:5-7-----5-7----5-7-------|
e:---------------------3---|



Riff 3:
g:-----------------------------------------------|
d:-----------------------------------------------|
a:--0-3---0-3---0-3---0-3-----2-----2-----2-----2|
e:1-----1-----1-----1-----0-3---0-3---0-3---0-3--|


Riff 4:
g:---------------------------------------|
d:---------------------------------------|
a:---------------------------------------|
e:1111111111111111111111-----------------|


Riff 5:
g:---------------------------------------|
d:---------------------------------------|
a:---------------------------------------|
e:1-------0--------1---------6/---0------|
            
Hard to play? Try these video lessons and learn fast. | Correct




comments powered by Disqus
↑ Back to top | Tablatures and chords are parodies/interpretations of the original songs. You may use it for private study, scholarship, research or language learning purposes only