» » »

Samurai Jack Tabs (ver.1)

Artists:  A B C D E F G H I J K L M N O P Q R S T U V W X Y Z # 

Samurai Jack Tabs (ver.1)

Theme Songs
Rating:
0/5 (0 votes)
Tabs too difficult? Try these video lessons and learn fast.
                e-----------------------------------------------------------------------------------
b------9---9-11-9--------------------9---9------------------------------------------
g--10-------------10--8-6-8-----10--------------------------------------------------
d---------------------------8-------------------------------------------------------
a---------------------------------------------------------6-------------------------
e-------------------------------------------6-6-6-6-9-6-6---6-----------------------

  play this then part 1; part 2      part 1            part 2
e------------------------------/\-----------------/\--------------------------------
b------------------------------\/-----------------\/--------------------------------
g---------------------8--------/\-----------------/\-8-6-8--------------------------
d--8-8-8--11-11-11-11---11-8---\/-----------------\/-------8------------------------
a------------------------------/\-------------6---/\--------------------------------
e------------------------------\/-6-6-6-6-9-6---6-\/--------------------------------

e-----------------------------------------------------------------------------------
b-----9--11--------------9----------------------------------------------------------
g--10--------8-6-8----10------------------------------------------------------------
d------------------8----------------------------------------------------------------
a----------------------------------------6------------------------------------------
e--------------------------6-6-6-6-9-6-6---6----------------------------------------

this is basically the whole song.  some parts just need to be repeated thats easy to figure out...hope all samurai jack fans like....nic
            
Tabs too difficult? Try these video lessons and learn fast.


comments powered by Disqus
↑ Back to top | Tablatures and chords are parodies/interpretations of the original songs. You may use it for private study, scholarship, research or language learning purposes only