» » »

Theme Songs, Reservoir Dogs Tabs (ver.1)

Artists:  A B C D E F G H I J K L M N O P Q R S T U V W X Y Z # 

Reservoir Dogs Tabs (ver.1)

Theme Songs Tabs
 Rating:
4/5 (4 votes)
Reservoir Dogs lessons Tabs too difficult? Try these video lessons and learn fast
1
                If youve seen the film you wanna learn to play this

-----------------|-------------------|----------------|-----------------------

-----------------|-------------------|----------------|-----------------------

---------3-------|-------------------|----------------|-----3-----------------

-5-x-3-5---5-3-5-|-5-3---------------|--------3-------|-3-5---5---------3-----

-----------------|-----3-5-----------|-5--3-5---5-3-5-|---------------5-------

-----------------|-------------------|----------------|-----------------------

                                                                              



-----------------------|---------------------|---------------------|----------

-----------------------|---------------------|---------------------|----------

------------3----------|---------------------|---------------------|----------

---5--3-5-5---5---3-5--|---------------------|----------3----------|--3-4-5---

----------------5------|--3--4--5-----0-0-0--|-5--3-5-5---5-0-3-5--|----------

-----------------------|---------------------|---------------------|----------
            
Submit corrections

comments powered by Disqus
↑ Back to top | Theme Songs Tabs for Reservoir Dogs. Lyrics for acoustic guitar and electric guitar. 1 Tablatures and chords are parodies/interpretations of the original songs. You may use it for private study, scholarship, research or language learning purposes only