>
 >
Peanuts

Peanuts Guitar Tabs

Theme Songs - Peanuts chords, tabs, tablatures, lyrics

Guitar lessons | Add/correct | Request | Top 50 tabs Artists:  A B C D E F G H I J K L M N O P Q R S T U V W X Y Z 0-9

Peanuts Guitar Tabs – Theme Songs

CD, Sheet music, Poster

Do you like Peanuts? Share with your friends now
Tabs

                                                                  
E|----------------4--|----6--8----8--6--4----|--6------4--------4--|
B|-------------------|----4--9----9----------|--4------------------|
G|----------------5--|---------------8--5----|---------5--------5--|
D|-------------------|-----------------------|---------------------|
A|-------------------|-----------------------|---------------------|
E|-------------------|-----------------------|---------------------|


                                                                   
----6--8----8--------|--------------------|----6--8----8--6--4----|
----4--9----9--------|----------------9---|-------9----9----------|
---------------------|--------------------|----8----------8--5----|
---------------------|----------------10--|-----------------------|
---------------------|--------------------|-----------------------|
---------------------|--------------------|-----------------------|


                                                               
--6------4--------4--|--------6--6--------|----------------4--|
--4---------------4--|--------4--4--------|-------------------|
---------5-----------|--------------------|----------------5--|
---------------------|--------------------|-------------------|
---------------------|--------------------|-------------------|
---------------------|--------------------|-------------------|


                                                                 
--------6--6--------|----------------4--|----6--8----8--6--4----|
--------4--4--------|-------------------|----4--9----9----------|
--------------------|----------------5--|---------------8--5----|
--------------------|-------------------|-----------------------|
--------------------|-------------------|-----------------------|
--------------------|-------------------|-----------------------|


                                                                 
--6------4--------4--|----6--8----8--------|--------------------|
--4------------------|----4--9----9--------|----------------9---|
---------5--------5--|---------------------|--------------------|
---------------------|---------------------|----------------10--|
---------------------|---------------------|--------------------|
---------------------|---------------------|--------------------|


                                                                   
----6--8----8--6--4----|--6------4--------4--|--------6--6--------|
-------9----9----------|--4---------------4--|--------4--4--------|
----8----------8--5----|---------5-----------|--------------------|
-----------------------|---------------------|--------------------|
-----------------------|---------------------|--------------------|
-----------------------|---------------------|--------------------|


                                                             
----------------4--|--------6--6--------|----------------4--|
-------------------|--------4--4--------|-------------------|
----------------5--|--------------------|-------------------|
-------------------|--------------------|-------------------|
-------------------|--------------------|-------------------|
-------------------|--------------------|-------------------|


                                                                    
--21--21--21--23------------16--|--16------16--16--16--16--16------|
--21--21--21--21----21--18--18--|--16--18--18--16--18--18--16------|
--22--22--22--20----20----------|----------------------------------|
--23--23--23--------------------|----------------------------------|
--------------------------------|----------------------------------|
--9---9---9---11----------------|------------------------------13--|


                                                                    
--21--21--21--23------------16--|--16------16--16--16--16--16------|
--21--21--21--21----21--18--18--|--16--18--18--16--18--18--16------|
--22--22--22--20----20----------|----------------------------------|
--23--23--23--------------------|----------------------------------|
--------------------------------|----------------------------------|
--9---9---9---11----------------|------------------------------13--|


                                                                  
--21--21--21--23------------16--|--16------16--16--16--16--16----|
--21--21--21--21----21--18--18--|--16--18--18--16--18--18--16----|
--22--22--22--20----20----------|--------------------------------|
--23--23--23--------------------|--------------------------------|
--------------------------------|--------------------------------|
--9---9---9---11----------------|--------------------------------|


                                                                       
--------------------|--------------------|----------------------------|
--------------------|--------------------|----------------------------|
--------------------|--------------------|--------17----17------------|
--18----------------|----------------18--|----20--18----18--20--18----|
--18----------------|--------------------|----18------------18--------|
--------------------|----------------20--|----------------------20----|


                                                                       
------------------------|------------------------|--------------------|
------------------------|------------------------|--------------------|
------------------------|--------17----17--------|--------------------|
--20------18--------18--|----20--18----18--------|----------------18--|
--18--------------------|----18------------------|--------------------|
----------20--------20--|------------------------|----------------20--|


                                                                             
----------------------------|------------------------|----------------------|
----------------------------|------------------------|----------------------|
--------17----17------------|------------------------|----------------------|
----20--18----18--20--18----|--20------18--------18--|--------20--20--------|
----18------------18--------|--18----------------18--|--------18--18--------|
----------------------20----|----------20------------|----------------------|


                                                                 
--------------------|----------------------|--------------------|
--------------------|----------------------|--------------------|
--------------------|----------------------|--------------------|
----------------18--|--------20--20--------|----------------18--|
--------------------|--------18--18--------|----------------18--|
----------------20--|----------------------|--------------------|


                                                                   
----------------------|--------------------|----------------------|
----------------------|--------------------|----------------------|
----------------------|--------------------|----------------------|
--------20--20--------|----------------18--|--------20--20--------|
--------18--18--------|--------------------|--------18--18--------|
----------------------|----------------20--|----------------------|


                                                  
------------------|----------11--------11--------|
------------------|------------------------------|
------------------|----------------11--------10--|
------------------|----------------12--------11--|
------------------|----------------11--------10--|
------------------|------------------------------|


                                                                         
--15----15----------------------------|--------------11--15----11-------|
------------------16------------------|--11--------------------------0--|
------------------------15--12----10--|--------10----10--------------8--|
--------------15------------------11--|--------11----11-----------------|
--------------16------------------10--|--------------10--------------8--|
--------------15----------------------|---------------------------------|


                                                                            
--13----13----------------------|---------------11--12--13--14--15------11-|
--------------0---14------------|--0--------13----------------------13-----|
------------------------13------|------------------------------------------|
--------------13----------------|--13-------13----------------------12-----|
--------------------------------|-----------14----------------------13-----|
--------------13----------------|--13-------13----------------------12-----|


                                          
----12------------13---------------------|
------------------------13------------14-|
----------------------------13-----------|
--------------12------------------13-----|
--------------13------------------14-----|
--------------12------------------13-----|


                                                                              
-----------------18----16------------11-|-----15----11------15---------------|
-------------12------------------11-----|------------------------------------|
-------15------------------12----10-----|---------------10--------10------11-|
-----------------------13--------11-----|---------------11--------11------12-|
-----------------------14--------10-----|---------------10--------10------11-|
-----------------------13---------------|------------------------------------|


                                                                       
--------------18--14--15--------|---18----18--------18--14-15---------|
--------------18----------------|---20----18--------18----------------|
----------11--------------------|-------------------------------------|
----------12----------16----15--|---------------15----------------15--|
----------11----------17----16--|---------------16----------------16--|
----------------------16----15--|---------------15----------------15--|


                                        
--18----18----18-----------------------|
--20----18----18--19--20-18--------14--|
-------------------------0---20--------|
-----------------------------------13--|
-------------------------20--------14--|
-------------------------21--------13--|


                                         
------------18----16--------------------|
--------12------------16--13--------14--|
--15--------------------------13--------|
------------------13----------------13--|
------------------14----------------14--|
------------------13----------------13--|


                                                     
------------13--16--21--25--21--16--13--12-13----14-|
--------14------------------------------------------|
----13----------------------------------------------|
--------------------------------13------------12----|
--------------------------------14------------13----|
--------------------------------13------------12----|


                                                                            
--15----------15----------------------|--------13----11--9-------10----14--|
--------16----16--17--------13----0---|-----------------------9------------|
----------------------------------13--|--10-------------------8------------|
------------------------12--------13--|-----------------------9--------14--|
------------------------13------------|-----------------------8--------15--|
------------------------12--------13--|--------------------------------14--|


                                                                              
--17----14------------------------15--|--13------------------11--------------|
--------------15------------16--------|--------16--------8---------11--------|
------------------14----15------------|------------15----10------------12----|
------------------------14--------15--|------------------11------------------|
------------------------15--------16--|------------------10------------------|
------------------------14--------15--|--------------------------------------|


                                                                      
------6--8----8--6--4----|--6------4--------4--|----6--8----8--------|
--9------9----9----------|--4------------------|----4--9----9--------|
------8----------8--5----|---------5--------5--|---------------------|
--10---------------------|---------------------|---------------------|
-------------------------|---------------------|---------------------|
-------------------------|---------------------|---------------------|


                                                                   
--------------------|----6--8----8--6--4----|--6------4--------4--|
----------------9---|-------9----9----------|--4---------------4--|
--------------------|----8----------8--5----|---------5-----------|
----------------10--|-----------------------|---------------------|
--------------------|-----------------------|---------------------|
--------------------|-----------------------|---------------------|


                                                              
--------6--6--------|----------------4--|--------6--6--------|
--------4--4--------|-------------------|--------4--4--------|
--------------------|----------------5--|--------------------|
--------------------|-------------------|--------------------|
--------------------|-------------------|--------------------|
--------------------|-------------------|--------------------|


                                                             
----------------4--|--------6--6--------|----------------4--|
----------------4--|--------4--4--------|-------------------|
-------------------|--------------------|----------------5--|
-------------------|--------------------|-------------------|
-------------------|--------------------|-------------------|
-------------------|--------------------|-------------------|


                                                                              
--------6--6--------|------------------|------------------|------------------|
--------4--4--------|------------------|------------------|------------------|
--------------------|------------------|------------------|------------------|
--------------------|------------------|------------------|------------------|
--------------------|------------------|------------------|------------------|
--------------------|------------------|------------------|------------------|


                                                                 
------------------|------------------|-------------4--6--8--16--|
------------------|------------------|----------1-----4---------|
------------------|------------------|----1--3-----5--------17--|
------------------|------------------|-------1------------------|
------------------|------------------|----3---------------------|
------------------|------------------|--------------------------|


                                                                         
--18--21------20----18------|--18------------------|----------------18--|
--------------21--------21--|----------21----------|--------------------|
--------------------20------|--20------------------|----------------20--|
------------------------22--|----------22----------|--------------------|
----------------------------|----------------------|--------------------|
----------------------------|----------------------|--------------------|


                                                               
--------16----------|----------------18--|--------16----------|
--------------------|----------------16--|--------------------|
--------17----------|--------------------|--------17----------|
--------------------|--------------------|--------------------|
--------------------|--------------------|--------------------|
--------------------|--------------------|--------------------|


                                                                          
Lower Octave Version:

E|-------------------|-----------------------|---------------------|
B|-------------------|-------1----1----------|---------------------|
G|----------------1--|----3--1----1--3--1----|--3------1--------1--|
D|-------------------|----1----------1-------|--1------------------|
A|----------------3--|------------------3----|---------3--------3--|
E|-------------------|-----------------------|---------------------|


                                                                  
---------------------|-------------------|-----------------------|
-------1----1--------|-------------------|-------1----1----------|
----3--1----1--------|----------------1--|----3--1----1--3--1----|
----1----------------|-------------------|----1----------1-------|
---------------------|----------------3--|------------------3----|
---------------------|-------------------|-----------------------|


                                                               
---------------------|--------------------|-------------------|
---------------------|--------------------|-------------------|
--3------1--------1--|--------3--3--------|----------------1--|
--1---------------1--|--------1--1--------|-------------------|
---------3-----------|--------------------|----------------3--|
---------------------|--------------------|-------------------|


                                                                 
--------------------|-------------------|-----------------------|
--------------------|-------------------|-------1----1----------|
--------3--3--------|----------------1--|----3--1----1--3--1----|
--------1--1--------|-------------------|----1----------1-------|
--------------------|----------------3--|------------------3----|
--------------------|-------------------|-----------------------|


                                                                
---------------------|---------------------|-------------------|
---------------------|-------1----1--------|-------------------|
--3------1--------1--|----3--1----1--------|----------------1--|
--1------------------|----1----------------|-------------------|
---------3--------3--|---------------------|----------------3--|
---------------------|---------------------|-------------------|


                                                                   
-----------------------|---------------------|--------------------|
-------1----1----------|---------------------|--------------------|
----3--1----1--3--1----|--3------1--------1--|--------3--3--------|
----1----------1-------|--1---------------1--|--------1--1--------|
------------------3----|---------3-----------|--------------------|
-----------------------|---------------------|--------------------|


                                                             
-------------------|--------------------|-------------------|
-------------------|--------------------|-------------------|
----------------1--|--------3--3--------|----------------1--|
-------------------|--------1--1--------|-------------------|
----------------3--|--------------------|-------------------|
-------------------|--------------------|-------------------|


                                                                
--9---9---9---11----------------|------------------------------|
--9---9---9-----------------9---|--9------9---9--9---9---9-----|
--10--10--10--13----13--10--10--|--8--10--10--8--10--10--8-----|
--11--11--11--13----13----------|------------------------------|
--------------------------------|------------------------------|
--------------------------------|---------------------------1--|


                                                                
--9---9---9---11----------------|------------------------------|
--9---9---9-----------------9---|--9------9---9--9---9---9-----|
--10--10--10--13----13--10--10--|--8--10--10--8--10--10--8-----|
--11--11--11--13----13----------|------------------------------|
--------------------------------|------------------------------|
--------------------------------|---------------------------1--|


                                                               
--9---9---9---11----------------|-----------------------------|
--9---9---9-----------------9---|--9------9---9--9---9---9----|
--10--10--10--13----13--10--10--|--8--10--10--8--10--10--8----|
--11--11--11--13----13----------|-----------------------------|
--------------------------------|-----------------------------|
--------------------------------|-----------------------------|


                                                                
-------------------|-------------------|-----------------------|
-------------------|-------------------|-----------------------|
-------------------|-------------------|-------5----5----------|
--6----------------|----------------6--|----8--6----6--8--6----|
--6----------------|-------------------|----6----------6-------|
-------------------|----------------8--|------------------8----|


                                                                
---------------------|---------------------|-------------------|
---------------------|---------------------|-------------------|
---------------------|-------5----5--------|-------------------|
--8------6--------6--|----8--6----6--------|----------------6--|
--6------------------|----6----------------|-------------------|
---------8--------8--|---------------------|----------------8--|


                                                                   
-----------------------|---------------------|--------------------|
-----------------------|---------------------|--------------------|
-------5----5----------|---------------------|--------------------|
----8--6----6--8--6----|--8------6--------6--|--------8--8--------|
----6----------6-------|--6---------------6--|--------6--6--------|
------------------8----|---------8-----------|--------------------|


                                                             
-------------------|--------------------|-------------------|
-------------------|--------------------|-------------------|
-------------------|--------------------|-------------------|
----------------6--|--------8--8--------|----------------6--|
-------------------|--------6--6--------|----------------6--|
----------------8--|--------------------|-------------------|


                                                              
--------------------|-------------------|--------------------|
--------------------|-------------------|--------------------|
--------------------|-------------------|--------------------|
--------8--8--------|----------------6--|--------8--8--------|
--------6--6--------|-------------------|--------6--6--------|
--------------------|----------------8--|--------------------|


                                                                              
------------------|--------------------------|--3----3-----------------------|
------------------|----------4-------4-------|---------------4---------------|
------------------|--------------------------|--------------------3--0-------|
------------------|---------------4-------3--|------------3---------------3--|
------------------|---------------5-------4--|------------4---------------4--|
------------------|---------------4-------3--|------------3---------------3--|


                                                         
---------------3------------|--1----1-------------------|
------------4-------4-------|---------------2-----------|
--3-------------------------|--------------------1------|
-------3----3------------1--|------------1--------------|
-------4----4------------2--|------------2--------------|
------------3------------1--|------------1--------------|


                                                                     
----------------0--1--2--3-------|----0-----------1-----------------|
----------1--4--------------1--4-|---------------------1----------2-|
---------------------------------|------------------------1---------|
--1-------1-----------------0----|-------------0---------------1----|
--2-------2-----------------1----|-------------1---------------2----|
--1-------1-----------------0----|-------------0---------------1----|


                                                                 
---------------6----4------------|-----3----------3-------------|
------------0------------------4-|----------4-------------------|
-------3---------------0----3----|------------------------------|
--------------------1-------3----|-------------3-------3------4-|
--------------------2-------4----|-------------4-------4------5-|
--------------------1-------3----|-------------3-------3------4-|


                                                           
-------------6-----3-------|---6----6-------6--2-3--------|
-------------6--7----------|---8----6-------6-------------|
---------------------------|------------------------------|
----------4--------4----3--|-------------3-------------3--|
----------5--------5----4--|-------------4-------------4--|
----------4--------4----3--|-------------3-------------3--|


                                                                 
--6----6----6------------------|----------6----4----------------|
--8----6----6--7--8-6--4----2--|-------0----------4--1-------2--|
-------------------------------|--3---------------------1-------|
--------------------3-------1--|---------------1-------------1--|
--------------------4-------2--|---------------2-------------2--|
--------------------3-------1--|---------------1-------------1--|


                                                                         
----------1--4--9--13--9--4--1--0-1---2-|--3---------3--0---------------|
-------2--------------------------------|-------4----4----------1-------|
----1-----------------------------------|----------------------------1--|
--------------------------1---------0---|--------------------0-------1--|
--------------------------2---------1---|--------------------1-------2--|
--------------------------1---------0---|--------------------0-------1--|


                                                                
-------1--------------------2--|--5----2--------------------3--|
------------4--2-------3-------|------------3----------4-------|
--------------------1----------|---------------2----3----------|
--3-----------------1-------2--|--------------------2-------3--|
--------------------2-------3--|--------------------3-------4--|
--------------------1-------2--|--------------------2-------3--|


                                                                               
--1----------------------------|------------------------|---------------------|
-------4----------4------------|--------1----1----------|---------------------|
----------3----0-------3--0----|--1--3--1----1--3--1----|--3------1--------1--|
---------------3---------------|-----1----------1-------|--1------------------|
---------------4---------------|--3----------------3----|---------3--------3--|
---------------3---------------|------------------------|---------------------|


                                                                  
---------------------|-------------------|-----------------------|
-------1----1--------|-------------------|-------1----1----------|
----3--1----1--------|----------------1--|----3--1----1--3--1----|
----1----------------|-------------------|----1----------1-------|
---------------------|----------------3--|------------------3----|
---------------------|-------------------|-----------------------|


                                                               
---------------------|--------------------|-------------------|
---------------------|--------------------|-------------------|
--3------1--------1--|--------3--3--------|----------------1--|
--1---------------1--|--------1--1--------|-------------------|
---------3-----------|--------------------|----------------3--|
---------------------|--------------------|-------------------|


                                                              
--------------------|-------------------|--------------------|
--------------------|-------------------|--------------------|
--------3--3--------|----------------1--|--------3--3--------|
--------1--1--------|----------------1--|--------1--1--------|
--------------------|-------------------|--------------------|
--------------------|-------------------|--------------------|


                                                                               
-------------------|--------------------|------------------|------------------|
-------------------|--------------------|------------------|------------------|
----------------1--|--------3--3--------|------------------|------------------|
-------------------|--------1--1--------|------------------|------------------|
----------------3--|--------------------|------------------|------------------|
-------------------|--------------------|------------------|------------------|
                                                       

                                                                         
----------------------4--|--6--9------8----6------|--6------------------|
-------------------1-----|------------9-------9---|---------9-----------|
-------------1--3-----5--|-----------------8------|--8------------------|
----------------1--------|--------------------10--|---------10----------|
----------3--3-----------|------------------------|---------------------|
----4--6-----------------|------------------------|---------------------|


                                                                                
----------------6--|--------4----------|----------------6--|--------4----------|
-------------------|-------------------|----------------4--|-------------------|
----------------8--|--------5----------|-------------------|--------5----------|
-------------------|-------------------|-------------------|-------------------|
-------------------|-------------------|-------------------|-------------------|
-------------------|-------------------|-------------------|-------------------|





Comments


Popular Theme Songs tabs & chords
Addams Family Bass Tabs
Hockey Night In Canada Theme Bass Tabs
Metal Gear Solid Theme Bass Tabs
Seinfeld Theme 1 Bass Tabs
Skip To M' Lou Bass Tabs
Trigger Happy T.V 1 Bass Tabs
Twilight Zone 1 Bass Tabs
Aeris Theme Tabs
Inspector Gadget Tabs
Titanic Theme Song Tabs


Song lyrics



↑ Back to top | Tablatures and chords are parodies/interpretations of the original songs. You may use it for private study, scholarship, research or language learning purposes only
© 2014 AZChords.com Contact us | Privacy policy | DMCA | Add/correct tabs | Request tabs | Top 50 tabs