» » »

Pacman Remix Bass tabs (ver.1)

Artists:  A B C D E F G H I J K L M N O P Q R S T U V W X Y Z # 

Pacman Remix Bass tabs (ver.1)

Theme Songs
Rating:
0/5 (0 votes)

Hard to play? Try these video lessons and learn fast.
                Riff 1:
g:---------------|
d:--8---8---9---9|
a:6---6---7---7--|
e:---------------|


Riff 2:
g:----------------|
d:--7---7----9---9|
a:6-------7-------|
e:----------------|


Riff 3:
g:---------------------|
d:---------------2-3-55|
a:3--3-3--3-3--3-------|
e:---------------------|
            
Hard to play? Try these video lessons and learn fast. | Correct




comments powered by Disqus
↑ Back to top | Tablatures and chords are parodies/interpretations of the original songs. You may use it for private study, scholarship, research or language learning purposes only