» » »

Ode To Joy Tabs (ver.1)

Artists:  A B C D E F G H I J K L M N O P Q R S T U V W X Y Z # 

Ode To Joy Tabs (ver.1)

Theme Songs
Rating:
0/5 (0 votes)

Hard to play? Try these video lessons and learn fast.
                e-0-0-1-3-3-1-0---------0---------]
b---------------3-1-1-3--3-1-1----]
g---------------------------------]
d---------------------------------]
a---------------------------------]
e---------------------------------]
Thats it it an ez song so try moveing it around down the neck and on other strings
e---------------------------------------]
b---------------------------------------]
g---------------------------------------]
d---------------------------------------]
a-12-12-13-15-15------------12----------]
e----------------15-13-13-15---15-13-13-]
thats how i like to play it but the really way is uptop bu w/e have fun with it
            
Hard to play? Try these video lessons and learn fast. | Correct




comments powered by Disqus
↑ Back to top | Tablatures and chords are parodies/interpretations of the original songs. You may use it for private study, scholarship, research or language learning purposes only