>
 >
Nightmare Before Christmas

Nightmare Before Christmas Guitar Tabs

Theme Songs - Nightmare Before Christmas chords, tabs, tablatures, lyrics

Guitar lessons | Add/correct | Request | Top 50 tabs Artists:  A B C D E F G H I J K L M N O P Q R S T U V W X Y Z 0-9

Nightmare Before Christmas Guitar Tabs – Theme Songs

CD, Sheet music, Poster

Do you like Nightmare Before Christmas? Share with your friends now
Tabs
E|||------------|
B|||---------15-|
G|||------------|
D|||---------15-|
A|||------------|
E|||------------|


                                                              
--13-----------10-13-15-17-18-|--17------0-------12-13-15-17-|
------------------15----15----|---------------14-14----14----|
--15------10------------------|--18--------------------------|
-------12-12------------------|------------------------------|
----------13------------------|-------16-16------------------|
------------------------------|----------17------------------|


                                                                         
--13-----------10-13-15-17-18-|--17------17------|--17----15--------22--|
--15--------------15----15----|--18---18-18---18-|--18-18-17-17-15--22--|
----------10------------------|-------19------19-|------------------22--|
-------12-12------------------|------------------|----------------------|
----------13------------------|------------------|----------------------|
------------------------------|------------------|----------------------|
                                                                          

                                                                         
--------------|-------------0-|--3-------0-3-5-7-8-|--7-----------0-5-7-|
--------------|-------------1-|--5---------5---5---|------------7-8-7---|
--------------|---------------|--------------------|--8-------8-8-------|
--------------|---------------|--------------------|--------------------|
--------------|---------------|--------------------|--------------------|
--------------|---------------|--------------------|--------------------|


                                                                    
--0-------0-0-5-7-8-|--7---7---7---7---|--7---7---7--7-|--8--------|
--8---------8---5---|--5-8---8---8---8-|----8---8-7--8-|--8--------|
--------------------|----------9-------|--9----------7-|--9--------|
--------------------|------------------|---------------|-----------|
--------------------|------------------|---------------|-----------|
--------------------|------------------|---------------|-----------|


                                                                              
------------|------------------7-8-|--7-----------0-5-7-|--0-------0-0-5-7-8-|
------------|--8----------8-10-----|------------7-8-7---|--8---------8---5---|
---------9--|--9-------9--9----9---|--8-------8-8-------|--------------------|
---------10-|----------10----------|--------------------|--------------------|
------------|----------------------|--------------------|--------------------|
------------|----------------------|--------------------|--------------------|


                                                                    
--7---7---7---7---|--7---7---7---7---|--7---7---7---7---|
--5-8-5-8-5-8-5-8-|--5-8-5-8-7-8-7-8-|----8---8---8---8-|
------------------|------------------|--9---9---9---9---|
------------------|------------------|------------------|
------------------|------------------|------------------|
------------------|------------------|------------------|


                                                              
--8-------0--|-----------|--8-7-5-7-8-7-5-8-|--7-5-0-5-7---0-|
-------8-----|-----------|------------------|--8-7-8-7-8-----|
-------------|--5------5-|--9-7-5-7-9-7-5-9-|----------------|
-------------|-----------|------------------|----------------|
-------------|-----------|------------------|----------------|
-------------|-----------|------------------|----------------|


                                                              
--8-7-5-7-8-7-5-8-|--7-5-0-5-7---0-|--10-8--6-8--10-8-----10-|
------------------|--8-7-8-7-8-----|--11-10-8-10-11-10-11----|
--9-7-5-7-9-7-5-9-|----------------|-------------------12----|
------------------|----------------|-------------------------|
------------------|----------------|-------------------------|
------------------|----------------|-------------------------|


                                                             
--9--8-6-8-9------|--9-7-5-7-9-7-9-11-|--12-11-9-12-11------|
------------------|-------------------|-------------13---13-|
--10-8-6-8-10---9-|--9----------------|--13--------------11-|
------------------|-------------------|---------------------|
------------------|-------------------|---------------------|
------------------|-------------------|---------------------|


                                                        
--9---------------------8--9-|--8------------------6-8-|
----------9-------9--11------|---------8------8-9--8---|
--10---10-10---10-10----10---|--9---9--9---9--9-10-----|
-------11------11------------|------10-----10----------|
-----------------------------|-------------------------|
-----------------------------|-------------------------|


                                                                           
------------------------8--9-|--8---8---8---8---8---8---|--8--8-9---------|
--9-------9-------9--11------|----9---9---9---9---9---9-|-----7-9---------|
--10---10-10---10-10----10---|--------------------------|-----8-10--------|
-------11------11------------|--------------------------|-----------------|
-----------------------------|--------------------------|-----------------|
-----------------------------|--------------------------|-----------------|


                                                                     
-----------4-----|--4-----4-6-8-9-8------|--------------6-8---------|
---------6-6---6-|--6---6-6---6----------|--8------8-9--8---9-------|
---------6-----6-|------6---------9---9--|--9---9--9-10-----10---10-|
-----------------|--------------------10-|------10---------------11-|
-----------------|-----------------------|--------------------------|
-----------------|-----------------------|--------------------------|


                                                             
----------------8--9-|--8----8---8---8---|--8---8---8---8---|
--9-------9--11------|-----9---9---9---9-|----9---9---9---9-|
--10---10-10----10---|-----------6-------|--7-------9-------|
-------11------------|--10---------------|------------------|
---------------------|-------------------|------------------|
---------------------|-------------------|------------------|


                                                                   
--8----8---8---8---|--9-6-9-6-9-8-9-11-|--13-11----11-13-11----11-|
-----9---9-7-9---9-|--8-------8--------|--------14----------14----|
--10-------8-------|--9-------9--------|--13----------14----------|
-------------------|-------------------|--15----------15----------|
-------------------|-------------------|--------------------------|
-------------------|-------------------|--------------------------|


                                                                      
--13----------13------|-----------------------|-------------------13-|
-----16-14-16-14---13-|--14----9----9----9----|--9----9----9----9----|
--15----------14---11-|--13-10---10---10---10-|----10---10---10------|
--15------------------|-----------------------|----------------------|
----------------------|-----------------------|----------------------|
----------------------|-----------------------|----------------------|


                                                                                                                                                             
---------8-|--9------------------|----------------------|--9--8-6-8-9--8-6-9--|
---------7-|--9---9----9----9----|--9----9----9----9-11-|---------------------|
-----------|--10----10---10---10-|----10---10---10------|--10-8-6-8-10-8-6-10-|
-----------|---------------------|----------------------|---------------------|
-----------|---------------------|----------------------|---------------------|
-----------|---------------------|----------------------|---------------------|


                                                          
--8-6----6-8---6-|--9--8-6-8-9--8-6-9--|--8-6----6-8---9-|
--9-8-9--8-9-----|---------------------|--9-8-9--8-9-----|
------10---------|--10-8-6-8-10-8-6-10-|------10---------|
-----------------|---------------------|-----------------|
-----------------|---------------------|-----------------|
-----------------|---------------------|-----------------|


                                                                     
--11-9-----9--11-9-----11-|--10-9-7-9-10---9-|--10-8-6-8-10-8-10-12-|
--12-11-12-11-12-11-12----|------------------|----------------------|
--------13----------13----|--11-9-7-9-11-----|--10------------------|
--------------------------|------------------|----------------------|
--------------------------|------------------|----------------------|
--------------------------|------------------|----------------------|


                                                     
--13-12-10-13-12-----|------------------------------|
--------------14--14-|--15--------------------14-15-|
--14-----------------|--14------14------14-16-------|
---------------------|--16---16-16---16-16----16----|
---------------------|-------17------17-------------|
---------------------|------------------------------|


                                                              
------------------------------|------------------------9--10-|
--14--------------------12-14-|--10------10------10-12-------|
----------13------13-14-13----|--11---11-11---11-11----11----|
--15---15-15---15-15-16-------|-------12------12-------------|
-------16------16-------------|------------------------------|
------------------------------|------------------------------|


                                                                        
--9-----9----9----9----|--9-----9----9----9----|--9-----9----9----9----|
-----10---10---10---10-|-----10---10-9-10---10-|-----10---10-8-10---10-|
--11-------------------|--11-------------------|--11-------------------|
-----------------------|-----------------------|-----------------------|
-----------------------|-----------------------|-----------------------|
-----------------------|-----------------------|-----------------------|


                                                                       
--10-9-7-9-10-9-10-12-|--14-12----12-14-12----12-|--14-12----12-14----|
--9-------------------|--15----15----14----15----|--15----15----15----|
--10------------------|--14----14----15----15----|--16----16----15----|
----------------------|--------------------------|--------------------|
----------------------|--------------------------|--------------------|
----------------------|--------------------------|--------------------|


                                                         
-----17-17-----18-18--|-----19-19-------|--21--0-------||
--10-18-18-----18-18--|--12-21-21-------|--22----------||
--10-19-19--15-19-19--|--13-22-22-------|--21----------||
--12--------15--------|--15-24-24-------|--23--19------||
------------17--------|--17-------------|------16------||
----------------------|-----------------|------17------||





Comments


Popular Theme Songs tabs & chords
007 Bass Tabs
Banana Bass Tabs
Batman 2 Bass Tabs
Frere Jacques Bass Tabs
Insomniac Theme Bass Tabs
Raw Bass Tabs
Jaws Tabs
Looney Toons Tabs
Mission Impossible 2 Tabs
Tetris Tabs


Song lyrics



↑ Back to top | Tablatures and chords are parodies/interpretations of the original songs. You may use it for private study, scholarship, research or language learning purposes only
© 2014 AZChords.com Contact us | Privacy policy | DMCA | Add/correct tabs | Request tabs | Top 50 tabs