» » »

Theme Songs, Mission Impossoble Bass tabs (ver.1)

Artists:  A B C D E F G H I J K L M N O P Q R S T U V W X Y Z # 

Mission Impossoble Bass tabs (ver.1)

Theme Songs Tabs
Rating:
0/5 (0 votes)
Hard to play? Try these video lessons and learn fast.
                G--------------------------
D-------------------------- 
A-----02-------------------
E--22---22--01-------------

G--------------------------
D-------------------------- 
A-----02-------------------
E--22---22--01------------

G---2---2---2--------------
D----4---4---3------------- x1
A-----4~--3~--2~----0-2----
E--------------------------

G--------------------------
D-------------------------- 
A-----02-------------------
E--22---22--01-------------

G--------------------------
D-------------------------- 
A-----02-------------------
E--22---22--01------------

G---2---2---2--------------
D----4---4---3------------- x1
A-----4~--3~--2~----0-2----
E--------------------------
            

comments powered by Disqus
↑ Back to top | Theme Songs Bass for Mission Impossoble. Lyrics for acoustic guitar and electric guitar. Tablatures and chords are parodies/interpretations of the original songs. You may use it for private study, scholarship, research or language learning purposes only