» » »

Theme Songs, Magic Roundabout Bass tabs (ver.2)

Artists:  A B C D E F G H I J K L M N O P Q R S T U V W X Y Z # 

Magic Roundabout Bass tabs (ver.2)

Theme Songs Tabs
Rating:
0/5 (0 votes)
Magic Roundabout lessons Tabs too difficult? Try these video lessons and learn fast
                G||12---12-12-----------|9---9-9----------|
D||-----------12---12---|--------10-------|
A||---------------------|-----------------|
E||---------------------|-----------------|

G||10---10-10-----------|11---11-11------9-10|
D||-----------10---10---|-----------11-------|
A||---------------------|--------------------|
E||---------------------|--------------------|

Repeat as many times as you like!
            
Submit corrections

comments powered by Disqus
↑ Back to top | Theme Songs Bass for Magic Roundabout. Lyrics for acoustic guitar and electric guitar. Tablatures and chords are parodies/interpretations of the original songs. You may use it for private study, scholarship, research or language learning purposes only