» » »

Lotr: Merry&Pips Drinking Song Tabs (ver.1)

Artists:  A B C D E F G H I J K L M N O P Q R S T U V W X Y Z # 

Lotr: Merry&Pips Drinking Song Tabs (ver.1)

Theme Songs
Rating:
0/5 (0 votes)

Hard to play? Try these video lessons and learn fast.
                Standard tuning-the whole song is just played on the first three strings (e-b-g) (I’m not sure if it’s tune with the actual song, but this version sounds just as well)

VERSE I
E|--2---------------------------0—0—2------|
B|-----3—-3-3—0-0-3---------3—3—-------3—3-|
G|-------------------2---2-----------------|

 |--3—3—0---0-2-2—------------------2-------|
 |----------------3---3-------0—3-3----3-3--|
 |-----------------------2-2----------------|

 VERSE II
 |--2--2-2-------------------------0—0—2--------|
 |---------3—-3-3—0--3---------3—3—-------3—3-3-|
 |---------------------2---2--------------------|

 |--3-3-3-0--0-2-2—------------------2-------|
 |-----------------3---3-3-------0—3----3-3--|
 |-------------------------2-2---------------|
            
Hard to play? Try these video lessons and learn fast. | Correct




comments powered by Disqus
↑ Back to top | Tablatures and chords are parodies/interpretations of the original songs. You may use it for private study, scholarship, research or language learning purposes only