» » »

Lord Of The Rings Tabs (ver.1)

Artists:  A B C D E F G H I J K L M N O P Q R S T U V W X Y Z # 

Lord Of The Rings Tabs (ver.1)

Theme Songs
Rating:
0/5 (0 votes)

Hard to play? Try these video lessons and learn fast.
                (Theme)
Lord of the Rings Theme

E|-----0-3-0-----0-3-5-8-7-3-0---------0-3-0-----0-3-5-5-|
B|-1-3-------3-1---------------3---1-3-------3-1---------|
G|-------------------------------------------------------|
D|-------------------------------------------------------|
A|-------------------------------------------------------|
E|-------------------------------------------------------|
               

E|-3-0-------------1-3-4-3-1---3-1----------------1-3-4--|
B|------3--1-----1-----------4-----4-3-1--1-----1--------|
G|-----------3-3----------------------------3-3----------|
D|-------------------------------------------------------|
A|-------------------------------------------------------|
E|-------------------------------------------------------|


E|-3-4-6-4-6-8-------------------------------------------|
B|-------------------------------------------------------|
G|-------------------------------------------------------|
D|-------------------------------------------------------|
A|-------------------------------------------------------|
E|-------------------------------------------------------|
            
Hard to play? Try these video lessons and learn fast. | Correct




comments powered by Disqus
↑ Back to top | Tablatures and chords are parodies/interpretations of the original songs. You may use it for private study, scholarship, research or language learning purposes only