» » »

Theme Songs, Looney Toons Tabs (ver.1)

Artists:  A B C D E F G H I J K L M N O P Q R S T U V W X Y Z # 

Looney Toons Tabs (ver.1)

Theme Songs Tabs
 Rating:
4/5 (4 votes)
Looney Toons lessons Tabs too difficult? Try these video lessons and learn fast
1
                -|-12-10----10-12-11-12----10-10-10-10-|-10-8-7-8-10-9-10-7-8-8-8-8-|---------
-|-------13-------------13-------------|----------------------------|---------
-|-------------------------------------|----------------------------|---------
-|-------------------------------------|----------------------------|---------
-|-------------------------------------|----------------------------|---------
-|-------------------------------------|----------------------------|---------
                                                                              

-|---------------------------------------|12-10----10-12-11-12---10-10-10-10|-
-|--------------3-3-3---------------5-5-5|------13-------------13-----------|-
-|0-1/2-0-1/2-0-------0-1/2-0-1/2-0------|----------------------------------|-
-|---------------------------------------|----------------------------------|-
-|---------------------------------------|----------------------------------|-
-|---------------------------------------|----------------------------------|-
                                                                              

-|----------10-12-15v-|-------------------------------------------------------
-|-10-9-10------------|-------------------------------------------------------
-|--------------------|-------------------------------------------------------
-|--------------------|-------------------------------------------------------
-|--------------------|-------------------------------------------------------
-|--------------------|-------------------------------------------------------
  The Bass Line goes:                                                         

-|-----------------|-----------------|---------------------------------|------
-|-----------------|-----------------|---------------------------------|------
-|-----------------|-----------------|---------------------------------|------
-|---------0-2-3-4-|-5---5-----0-1-2-|---------------------------------|------
-|-3---3-0---------|---5-----3-------|-3---3---5---5---5---5---3---3---|------
-|---3-------------|-------3---------|---3---3---3---3---3---3---3---3-|------
                                                                              

-|----------------|-----------------------|-----------------------------------
-|----------------|-----------------------|-----------------------------------
-|-15-13-11-13-15-|-----------------------|-----------------------------------
-|----------------|-------6-5-------------|-----------------------------------
-|----------------|-5-7-8------3---3----3-|-----------------------------------
-|----------------|--------------3----3---|-----------------------------------
            
Submit corrections

comments powered by Disqus
↑ Back to top | Theme Songs Tabs for Looney Toons. Lyrics for acoustic guitar and electric guitar. 1 Tablatures and chords are parodies/interpretations of the original songs. You may use it for private study, scholarship, research or language learning purposes only