» » »

Frere Jacques Bass tabs (ver.1)

Artists:  A B C D E F G H I J K L M N O P Q R S T U V W X Y Z # 

Frere Jacques Bass tabs (ver.1)

Theme Songs
Rating:
0/5 (0 votes)

Hard to play? Try these video lessons and learn fast.
                
i edited this b/c of poor comments..
i hope its right now!

~ Let Ring

g---------------------------------
d---------------------------------
a---1-3------1-3----3-4-6---3-4-6-
e-4-----4--4-----4----------------

g-------------------------|-----------------
d-1-3-1-------1-3-1-------|-----------------
a------4-3----------4-3---|-----------------
e----------4------------4-|-4-0-4~-4-0-4~---
                               ending
            
Hard to play? Try these video lessons and learn fast. | Correct




comments powered by Disqus
↑ Back to top | Tablatures and chords are parodies/interpretations of the original songs. You may use it for private study, scholarship, research or language learning purposes only