» » »

Final Fantasy Ix - The Dark Messenger Tabs (ver.1)

Artists:  A B C D E F G H I J K L M N O P Q R S T U V W X Y Z # 

Final Fantasy Ix - The Dark Messenger Tabs (ver.1)

Theme Songs
Rating:
0/5 (0 votes)

Hard to play? Try these video lessons and learn fast.
                
TUNING: Standard C Tuning

C |------------------------------------------------|
G |------------------------------------------------|
Eb|----------------------------------------------2-|
Bb|--------------------------5-------------------2-|
F |-0-0-0-3-0-------3-3--6-7---765-3-0-----3-0-3-0-|
C |-----------0-3-4--------------------3-4---------|

C |------------------------------------------------|
G |------------------------------------------------|
Eb|------------------------------------------------|
Bb|------------------------------------------------|
F |-----------------0--0------------------1-1------|
C |-4-4-4-7-4-0-1-2------2-1-0--0-0-0-3-5-----5-3-0|


C |-------------------------------------|
G |-------------------------------------|
Eb|-5-5----5-5--5-5-----5-5----5-5--5-5-|
Bb|-5-5----5-5--5-5-----5-5----5-5--5-5-|
F |-3-3----3-3--3-3-----3-3----3-3--3-3-|
            
Hard to play? Try these video lessons and learn fast. | Correct




comments powered by Disqus
↑ Back to top | Tablatures and chords are parodies/interpretations of the original songs. You may use it for private study, scholarship, research or language learning purposes only