» » »

Theme Songs, Dead March Bass tabs (ver.1)

Artists:  A B C D E F G H I J K L M N O P Q R S T U V W X Y Z # 

Dead March Bass tabs (ver.1)

Theme Songs Tabs
 Rating:
4/5 (4 votes)
Dead March lessons Tabs too difficult? Try these video lessons and learn fast
1
                The Dead March

We sat in our garage and had a jam session.Someone gets the Idea of making this Tab.



Here it is,punks:
Intro:
G[------------------------------------------]
D[------------------------------------------]
A[------------------------------------------]
E[-0-0-0-0----1-1--2-2----------------------]
2nd:

G[------------------------------------------]
D[------------------------------------------] Bass 1
A[------------------------------------------]
E[-0-0-0-0----1-1--2-2----------------------]


G[-0-0-0-0----1-1--2-2----------------------]
D[------------------------------------------] Bass 2
A[------------------------------------------]
E[------------------------------------------]
play the 2nd Intro 4times.1 time only bass 1.1time bass 1 and 2
and than one time bass 1 and 2,guitar. and than one time all together.

Riff 1
only bass
G[------------------------------------------]
D[------------------------------------------]
A[------------------------------------------]
E[-3-3-3-3----7----5-5--3-3--0--3-----------]

G[------------------------------------------]
D[------------------------------------------]
A[------------------------------------------]
E[-3-3-3-3----7----5-5--3-3--0--3-----------]
Riff 2
G[------------------------------------------]
D[------------------------------------------]
A[------------------------------------------]
E[-0-0-0-0----6----4-4--0-0--3--0-----------]

G[------------------------------------------]
D[------------------------------------------]
A[------------------------------------------]
E[-3-3-3-3----7----5-5--3-3--0--3-----------]
Final :

G[-0-0-0-0----6----4-4--0-0--3--0-----------]   Bass 1
D[------------------------------------------]
A[------------------------------------------]
E[------------------------------------------]

G[------------------------------------------]   Bass 2
D[------------------------------------------]
A[-0-0-0-0----6----4-4--0-0--3--0-----------]
E[-0-0-0-0----6----4-4--0-0--3--0-----------]
It sounds really good.U can variate much as u want.


see you
            
Submit corrections

comments powered by Disqus
↑ Back to top | Theme Songs Bass for Dead March. Lyrics for acoustic guitar and electric guitar. 1 Tablatures and chords are parodies/interpretations of the original songs. You may use it for private study, scholarship, research or language learning purposes only