» » »

Charlie\S Angels Tabs (ver.1)

Artists:  A B C D E F G H I J K L M N O P Q R S T U V W X Y Z # 

Charlie\S Angels Tabs (ver.1)

Theme Songs
Rating:
0/5 (0 votes)

Hard to play? Try these video lessons and learn fast.
                Charlie’s Angels Theme

Tuning: Standard

e|-9~--7-9~--|-7-12-10-9~--7-9~--|-7-9-10-11-12-14~--12-14~---|--
B|-----------|-------------------|----------------------------|--
G|-----------|-------------------|----------------------------|--
D|-----------|-------------------|----------------------------|--
A|-----------|-------------------|----------------------------|--
E|-----------|-------------------|----------------------------|--

 --12-17-15-14~--12-14~~~~----|--
 -----------------------------|--
 -----------------------------|--
 -----------------------------|--
 -----------------------------|--
 -----------------------------|--

 -9~--7-9~---|-7-3-5-7-9~--7-9~--|-7-12-10-9~--7-9~~~~|----------
 ------------|-------------------|--------------------|----------
 ------------|-------------------|--------------------|----------
 ------------|-------------------|--------------------|----------
 ------------|-------------------|--------------------|----------
 ------------|-------------------|--------------------|----------

 -9~--7-9~--|-7-12-10-9~--7-9~--|-7-9-10-11-12-14~--12-14~~~~|---
 -----------|-------------------|----------------------------|---
 -----------|-------------------|----------------------------|---
 -----------|-------------------|----------------------------|---
 -----------|-------------------|----------------------------|---
 -----------|-------------------|----------------------------|---

 -9~--7-9~--|-7-12-10-9~--7-9~~~~~~~---|
 -----------|--------------------------|
 -----------|--------------------------|
 -----------|--------------------------|
 -----------|--------------------------|
 -----------|--------------------------|


You can play this with some nice Hammer-Ons/Slides or whatever you want! Nice Jam Song! Have fun!
            
Hard to play? Try these video lessons and learn fast. | Correct




comments powered by Disqus
↑ Back to top | Tablatures and chords are parodies/interpretations of the original songs. You may use it for private study, scholarship, research or language learning purposes only