» » »

Theme Songs, Budweiser Song Tabs (ver.1)

Artists:  A B C D E F G H I J K L M N O P Q R S T U V W X Y Z # 

Budweiser Song Tabs (ver.1)

Theme Songs Tabs
 Rating:
4/5 (4 votes)
Budweiser Song lessons Tabs too difficult? Try these video lessons and learn fast
1
                Budweiser Commercial Theme
Drop “D” Tuning

Intro/Main Verse:Clean
Drop “D” Tuning

Intro/Main Verse:Clean
e|------------------------------------------------------------------------| 
b|------------------------------------------------------------------------|
g|----------------------------14------------------------------------------| 
d|----------------------------12---------0h3/5---5---5---5-5h6--3---3h5--0| 
A|-12---12----12--12h13-------13---------0h3/5---5---5---5-5h6--3---3h5--0| 
e|--0----0-----0---0-----------0---------0h3/5---5---5---5-5h6--3---3h5--0| 
Repeat riff then after he goes 

e|----------------------------------------| 
B|----------------------------------------|
G|-------------------------14-------------| 
D|--0---0-3/12--0----------12-----0h3/5---|
A|--0---0-3/12--0---12h13--13-----0h3/5---|
E|--0---0-3/12--0---0-------0-----0h3/5---|

Chorus: Distortion/Overdrive 
e|----------------------------------------------------------| 
B|----------------------------------------------------------| 
G|----------------------------------------------------------| 
A|-----------------------4----------------------------------| 
D|---3-4-5-----3-4-5----------5-4-3-----------------5-5-----| 
E|------------------------------------------5-4-3---0-0-----| 

e|------------------------------------------------------------------| 
B|------------------------------------------------------------------| 
G|------------------------------------------------------------------| 
A|-------------------------------4----------------------------------| 
D|---3-4-5-----3-4-5-----3-4-5------5-4-3-----------------5-5-------| 
E|--------------------------------------------------5-4-3-0-0-------| 
Hope you like it did it all my self it’s pretty simple.
            
Submit corrections

comments powered by Disqus
↑ Back to top | Theme Songs Tabs for Budweiser Song. Lyrics for acoustic guitar and electric guitar. 1 Tablatures and chords are parodies/interpretations of the original songs. You may use it for private study, scholarship, research or language learning purposes only