» » »

Theme Songs, Bond Greatest Tabs (ver.1)

Artists:  A B C D E F G H I J K L M N O P Q R S T U V W X Y Z # 

Bond Greatest Tabs (ver.1)

Theme Songs Tabs
Rating:
0/5 (0 votes)
Bond Greatest lessons Tabs too difficult? Try these video lessons and learn fast
                E|-------------------------------------------------|
B|-------------------------------------------------|
G|-------------------------------------------------|
D|-------------------------------------------------|
A|---1----2----3----2----1---2----3---2------------|
E|------0----0----0----0---0---0----0---0----------|


E |---------------------------------------------------|
B |---------------------------------------------------|
G |---------------------------------------------------|
D |---------------------------------------------------|
A |----0--2-2-2-2---0-0-0-0--0--3-3-3-3--2-2-2--------|
E |---------------------------------------------------|X2



E |---------------------------------------------------|
B | --------------------------------------------------|
G |---2--0--------------------------------------------|
D |-----------2--0--2---------------------------------|
A |-----------------------3--2------------------------|
E |-------------------------------0--5--2-------------|
            

comments powered by Disqus
↑ Back to top | Theme Songs Tabs for Bond Greatest. Lyrics for acoustic guitar and electric guitar. Tablatures and chords are parodies/interpretations of the original songs. You may use it for private study, scholarship, research or language learning purposes only