» » »

Barney Bass tabs (ver.1)

Artists:  A B C D E F G H I J K L M N O P Q R S T U V W X Y Z # 

Barney Bass tabs (ver.1)

Theme Songs
Rating:
0/5 (0 votes)

Hard to play? Try these video lessons and learn fast.
                (Theme)
G---------------------------------
D------0-2---2-0------0-2---------
A-3-3------3------3-3------3-2----
E---------------------------------

G---------------------------------
D------0-2-3-2-0------------------
A-3-3-------------3-2---0-2-3--3--
E-----------------------3---------

I did this song because there were a bunch of tabs 

for it (or yankee doodle dandy, its the same thing) and 

they weren't any good, i never actually listened to the 

song, so the notes may be off from the actual 

recording, but its still allright by itself.
            
Hard to play? Try these video lessons and learn fast. | Correct




comments powered by Disqus
↑ Back to top | Tablatures and chords are parodies/interpretations of the original songs. You may use it for private study, scholarship, research or language learning purposes only