» » »

Awexome Cross From Homestar Runner Tabs (ver.1)

Artists:  A B C D E F G H I J K L M N O P Q R S T U V W X Y Z # 

Awexome Cross From Homestar Runner Tabs (ver.1)

Theme Songs
Rating:
0/5 (0 votes)
Tabs too difficult? Try these video lessons and learn fast.
                
Drop "D" Tuning

For fans of Homestar Runner, this is the theme played through out the Strong Bad 

Symbols
. = palm mute

Gtr. 1 

|--------------------------------------------------
|--------------------------------------------------
|--------------------------------------------------
|--0--0-0-0-0--0--0-0-0-0--3--3-3-3-3--3--3-3-3-3--
|--0--0-0-0-0--0--0-0-0-0--3--3-3-3-3--3--3-3-3-3--
|--0--0-0-0-0--0--0-0-0-0--3--3-3-3-3--3--3-3-3-3--
      . . . .     . . . .     . . . .     . . . .

|--------------------------------------------------|
|--------------------------------------------------|
|--------------------------------------------------|
|--8--8-8-8-8--8--8-8-8-8--7--7-7-7-7--7--7-7-7-7--|
|--8--8-8-8-8--8--8-8-8-8--7--7-7-7-7--7--7-7-7-7--|
|--8--8-8-8-8--8--8-8-8-8--7--7-7-7-7--7--7-7-7-7--|
      . . . .     . . . .     . . . .     . . . .

Gtr. 2

|-----------------------------------------------------|
|----------------------------------------------15-14--|
|--------15-14--------15-14--------15-14-15-14--------|
|-----------------------------------------------------|
|--13-12--------13-12--------13-12--------------------|
|-----------------------------------------------------|

Have fun!
            
Tabs too difficult? Try these video lessons and learn fast.


comments powered by Disqus
↑ Back to top | Tablatures and chords are parodies/interpretations of the original songs. You may use it for private study, scholarship, research or language learning purposes only