» » »

Theme Song, Zelda Song Tabs (ver.1)

Artists:  A B C D E F G H I J K L M N O P Q R S T U V W X Y Z # 

Zelda Song Tabs (ver.1)

Theme Song Tabs
 Rating:
4/5 (4 votes)
Zelda Song lessons Tabs too difficult? Try these video lessons and learn fast
                (I came up with this one off the top of my head, it reminds me of zelda,
and its a nice peaceful tune.  Played at a moderate speed. Sounds best when 
finger picked)

(Normal Tuning)

---5-----5-----3-----3-----2-----2-----3-----3---------------
-----0-----0-----0-----0-----0-----0-----0-----0-------------   
-------0-----0-----0-----0-----0-----0-----0-----0-----------    (x2)
-------------------------------------------------------------
-------------------------------------------------------------
-------------------------------------------------------------

---7-----7-----5-----5-----4-----4-----5-----5---------------
-----0-----0-----0-----0-----0-----0-----0-----0-------------
-------0-----0-----0-----0-----0-----0-----0-----0-----------    (x2)
-------------------------------------------------------------
-------------------------------------------------------------
-------------------------------------------------------------

(repeat as many times as you want)
            
Submit corrections

comments powered by Disqus
↑ Back to top | Theme Song Tabs for Zelda Song. Lyrics for acoustic guitar and electric guitar. Tablatures and chords are parodies/interpretations of the original songs. You may use it for private study, scholarship, research or language learning purposes only