» » »

Wong Fei Hong Tabs (ver.1)

Artists:  A B C D E F G H I J K L M N O P Q R S T U V W X Y Z # 

Wong Fei Hong Tabs (ver.1)

Theme Song
Rating:
0/5 (0 votes)

Hard to play? Try these video lessons and learn fast.
                E-----------------------------------------------------------------------------------
B|----------------------------------------------------------------------------------
G-----------------------------------------------------------------------------------
D|----------------------------------------------------------------------------------
A|----------------------------------------------------------------------------------
E|7-7-7-7--10-10-10-10--7-10-7-5--7-7-7-7-7-7-7-7-----------------------------------

E-----------------------------------------------------------------------------------
B|----------------------------------------------------------------------------------
G---------------------------------------------------2-------------------------------
D|------------------------------------------------2---------------------------------
A|--------------------------------7-7-7-7-7--9-4--------9-4-2-1----------------------
E|7-7-7-7--10-10-10-10--7-10-5-7-------------------------------------------------------
            
Hard to play? Try these video lessons and learn fast. | Correct




comments powered by Disqus
↑ Back to top | Tablatures and chords are parodies/interpretations of the original songs. You may use it for private study, scholarship, research or language learning purposes only