» » »

The Princess Bride Bass tabs (ver.1)

Artists:  A B C D E F G H I J K L M N O P Q R S T U V W X Y Z # 

The Princess Bride Bass tabs (ver.1)

Theme Song
Rating:
0/5 (0 votes)

Hard to play? Try these video lessons and learn fast.
                this is the slow song in the movie The Princess Pride

d|---11--11---12--12--14--11
g|-12--12--12---------------
a|--------------------------
e|--------------------------

d|---11--11---9--9--11--
g|-12--12---12--------12
a|----------------------
e|----------------------


please rate this
            
Hard to play? Try these video lessons and learn fast. | Correct




comments powered by Disqus
↑ Back to top | Tablatures and chords are parodies/interpretations of the original songs. You may use it for private study, scholarship, research or language learning purposes only