» » »

The Great Escape Bass tabs (ver.1)

Artists:  A B C D E F G H I J K L M N O P Q R S T U V W X Y Z # 

The Great Escape Bass tabs (ver.1)

Theme Song
Rating:
0/5 (0 votes)

Hard to play? Try these video lessons and learn fast.
                G-10--12^13--12----------------------------------------------------------
D------------------12--10--12^14--12--9--7--5--7--9--10------------------
A--------------------------------------------------------------5>7--9----
E------------------------------------------------------------------------



G-------------------------------------10--10^12>7>9-------------------------
D----------------------7--9--10--12-----------------------------------------
A-7--9^10--9--5--10---------------------------------------------------------
E---------------------------------------------------------------------------



G-----------------------------------------------------------------------------
D-7--9^10--9------------------------------------------------------------------
A-------------10--8--10--12--10--7--5--3--5--7^8-------------------------5--7-
E------------------------------------------------------5^7--7--5--7^8--3--10--

THIS IS MY FAVEOURITE BLUR SONG I DONT KNOW WHY I PUT IT UNDER THEAME SONG
            
Hard to play? Try these video lessons and learn fast. | Correct




comments powered by Disqus
↑ Back to top | Tablatures and chords are parodies/interpretations of the original songs. You may use it for private study, scholarship, research or language learning purposes only