» » »

The Adams Family Bass tabs (ver.1)

Artists:  A B C D E F G H I J K L M N O P Q R S T U V W X Y Z # 

The Adams Family Bass tabs (ver.1)

Theme Song
Rating:
0/5 (0 votes)

Hard to play? Try these video lessons and learn fast.
                The Adams Family Theme song

+ \		| \
|  \ rest	|  \ end
|  /		|  /
+ /		| /

There are 2 ways to play this song

1st Version

Intro (Version 1)
G|---------+---------+---------------------------+
D|---------|-------0-|--------0--------0---------|
A|---0-2-3-|-0-2-3---|--0-2-3----0-2-3-----0-2-3-|
E|-3-------+---------+-------------------3-------+

Verse (Version 1)
G|--------------+---------------+--------------+-------------|
D|-----2------0-|-----0---------|-----2------0-|-------------|
A|---3--3-2-0---|-0-2---2-0---3-|---3--3-2-0---|-0-----0-2-3-|
E|-3------------+-----------3---+-3------------+---3-3-------|


2nd Version

Intro (Version 2)
G|---------+---------+---------------------------+
D|---------|---------|---------------------------|
A|-----2-3-|---2-3-5-|----2-3-5----2-3-5-----2-3-|
E|-3-5-----+-5-------+--5--------5-------3-5-----+

Verse (Version 2)
G|--------------+---------------+--------------+-------------|
D|-----2--------|---------------|-----2--------|-------------|
A|---3--3-2---5-|---2-5-2-----3-|---3--3-2---5-|-------0-2-3-|
E|-3--------5---+-5-------5-3---+-3--------5---+-5-3-3-------|


Thats the Theme song. Personally I Like to play Intro (Version 1) and Verse (Version 2).
But you can decide what Fingering is easier
            
Hard to play? Try these video lessons and learn fast. | Correct




comments powered by Disqus
↑ Back to top | Tablatures and chords are parodies/interpretations of the original songs. You may use it for private study, scholarship, research or language learning purposes only