» » »

Tales From The Crypt Bass tabs (ver.1)

Artists:  A B C D E F G H I J K L M N O P Q R S T U V W X Y Z # 

Tales From The Crypt Bass tabs (ver.1)

Theme Song
Rating:
0/5 (0 votes)

Tabs too difficult? Try these video lessons and learn fast.
                tuning
E to D, A to G, D to C, G to F like that
 Come in with the horns that make the lower sound and follow through like this
 B=string bend
 F|-------3-4-----------------------------|
 C|--3-4-5--------5-6-5-6-5-7-8-7-8-7-8-7-|
 G|----------3-4--------------------------|
 D|---------------------------------------|
    And again
 F|-------3-4-----------------------------|
 C|--3-4-5-------5-6-5-6-5-6-6B-6B-6B-6B--| 
 G|----------3-4--------------------------|
 D|---------------------------------------|
  Pretty fun to play, just play along with the lower horns and you will have it.
                                                                          Mikey
            
Tabs too difficult? Try these video lessons and learn fast.


comments powered by Disqus
↑ Back to top | Tablatures and chords are parodies/interpretations of the original songs. You may use it for private study, scholarship, research or language learning purposes only