» » »

Theme Song, Super Mario- Complete Song Bass tabs (ver.1)

Artists:  A B C D E F G H I J K L M N O P Q R S T U V W X Y Z # 

Super Mario- Complete Song Bass tabs (ver.1)

Theme Song Tabs
Rating:
0/5 (0 votes)
Super Mario- Complete Song lessons Tabs too difficult? Try these video lessons and learn fast
                
verse 1
G 0-0-0---0-3------------------------0-3-5-1-3-0------------------------
D ------1-----------1-------0------0-------------1-3-0------------------
A ------------0-------0---2---3-2---------------------------------------
E ----------------------2-----------------------------------------------

verse 2
G 3-2-1---0-------------3-2-1---0--888---3-2-1---0----------------------
D ------4-------1---1-3-------4----------------4-------1---1-3--4-3-1---
A ----------1-2---2--------------------------------1-2---2--------------
E ----------------------------------------------------------------------

verse 3
G -----------0------------------0-------------0-------------------------
D 1-1-1--1-3---1-----1-1-1--1-3----1-1-1--1-3---1-----------------------
A ---------------2-0------------------------------2-0-------------------
E ----------------------------------------------------------------------

(repeat verse 1)

verse 4
G 0--------1-1-----5-5-5-3-1-0--------0-------1-1-----1-1-1-0-----------
D -1-------------0-------------1-------1------------0---------3-1-------
A --0--1-2-----2-----------------2-0----0-1-2-----2---------------------
E ----------------------------------------------------------------------

***, that took a while to type, anyway, i hope u guys like it please rate it!
            
Submit corrections

comments powered by Disqus
↑ Back to top | Theme Song Bass for Super Mario- Complete Song. Lyrics for acoustic guitar and electric guitar. Tablatures and chords are parodies/interpretations of the original songs. You may use it for private study, scholarship, research or language learning purposes only