» » »

Super Mario Brothrs Tabs (ver.1)

Artists:  A B C D E F G H I J K L M N O P Q R S T U V W X Y Z # 

Super Mario Brothrs Tabs (ver.1)

Theme Song
Rating:
0/5 (0 votes)

Hard to play? Try these video lessons and learn fast.
                (Theme)
Tuning: Standard

*This is 100% correct*

Key
:= Repete



Intro Chords
E|--------3-----3--|
A|--3-3-3-3-3-2----|
D|--2-2-2---2-5----|
G|-----------------|
B|-----------------|
E|-----------------|


Main Riff A
E|----3-0-5-7-5-4-3---------------------3-0-5-7-5-4-3--------------------|
A|--3---------------3-----------------3---------------3---------3-3---2--|
D|--------------------2---3-5-2-2-3-0-------------------2-3-0-2-----0----|
G|----------------------2------------------------------------------------|
B|-----------------------------------------------------------------------|
E|-----------------------------------------------------------------------|


Riff B
E|:-----------------------------------------------------------------:|
A|:------------0-3-0-3-5---------------------------0-3-0-3-5-6-5-3--:|
D|:--5-4-3-1-2-----------5-4-3-1-2-------5-4-3-1-2------------------:|
G|:--------------------------------5-5-5----------------------------:|
B|:-----------------------------------------------------------------:|
E|:-----------------------------------------------------------------:|


Riff C
E|----------------5-3-----------------------------5-3--|
A|--3-3-3-3-5---3------3-3-3-3-5----3-3-3-3-5---3------|
D|------------2------------------2------------2--------|
G|-----------------------------------------------------|
B|-----------------------------------------------------|
E|-----------------------------------------------------|
(Right After this go directly Back into the intro chords)
            
Hard to play? Try these video lessons and learn fast. | Correct




comments powered by Disqus
↑ Back to top | Tablatures and chords are parodies/interpretations of the original songs. You may use it for private study, scholarship, research or language learning purposes only