» » »

Super Mario Bros Bass tabs (ver.1)

Artists:  A B C D E F G H I J K L M N O P Q R S T U V W X Y Z # 

Super Mario Bros Bass tabs (ver.1)

Theme Song
Rating:
0/5 (0 votes)

Hard to play? Try these video lessons and learn fast.
                (Theme)
Riff 1
G---5--------- 
D-------7---8- 
A-3----------- x2
E-----5---6---
B-------------

Riff 2
G-------------
D---3---------
A-------5---6- x2
E-1-----------
B-----3---4---

Interlude
G-----------------------------------------------
D-------------------------------876-------------
A---------------------------987----------------- x1
E-11-10-9-8---11-10-----9-8---------8-7-6-5-4---
B-------------------9-8-------------------------
repeat as much as you want

or in Drop D
Riff 1
G---5---2---3-
D------------- x2
A-3---0---1---
D-------------

Riff 2
G--------------
D---3---0---1--
A-------------- x2
D-3---0---1----

Interlude
G---------------------------------------
D------------------------876------------
A-6543-6-5-----------987----------------
D----------6-5-11-10---------10-9-8-7-6-
            
Hard to play? Try these video lessons and learn fast. | Correct




comments powered by Disqus
↑ Back to top | Tablatures and chords are parodies/interpretations of the original songs. You may use it for private study, scholarship, research or language learning purposes only