» » »

Star Wars 1 Bass

Artists:  A B C D E F G H I J K L M N O P Q R S T U V W X Y Z # 

Star Wars 1 Bass

(ver. 3)
Theme Song Tabs
 Rating:
4/5 (4 votes)
    Star Wars lessons Tabs too difficult? Try these video lessons and learn fast
                |-------------------------------------------------------------------|
|-------------------------------------------------------------------|
|------4--4--4------7---4-----7---4---------------------------------|
|----------------5---------5----------------------------------------|


|-------------------------------------------------------------------|
|------4--4--4---7--4-----------------------------------------------|
|----------------------5-------7---4--------------------------------|
|---------------------------5---------------------------------------|
            
Submit corrections

↑ Back to top | Theme Song Bass for Star Wars. Lyrics for acoustic guitar and electric guitar. Tablatures and chords are parodies/interpretations of the original songs. You may use it for private study, scholarship, research or language learning purposes only