» » »

Star Wars Bass tabs (ver.1)

Artists:  A B C D E F G H I J K L M N O P Q R S T U V W X Y Z # 

Star Wars Bass tabs (ver.1)

Theme Song
Rating:
0/5 (0 votes)

Hard to play? Try these video lessons and learn fast.
                This is the StarWars theme song

G|--------------------------------|
D|--------------------------------|
A|--------------2--------2--------|
E|--3--3--3--0-----3--0-----3--0--|


G|-----------------------------|
D|-----------------------------|
A|--6--6--6--7--2--------2-----|
E|-----------------3--0-----3--|

This should be right.
Ps. this is also the guitarversion.
            
Hard to play? Try these video lessons and learn fast. | Correct




comments powered by Disqus
↑ Back to top | Tablatures and chords are parodies/interpretations of the original songs. You may use it for private study, scholarship, research or language learning purposes only