» » »

Theme Song, Sonic The Hedgehog Starlight Zone Bass tabs (ver.1)

Artists:  A B C D E F G H I J K L M N O P Q R S T U V W X Y Z # 

Sonic The Hedgehog Starlight Zone Bass tabs (ver.1)

Theme Song Tabs
 Rating:
4/5 (4 votes)
Sonic The Hedgehog Starlight Zone lessons Tabs too difficult? Try these video lessons and learn fast
1
                Tuning: Standard E,A,D,G


G----------------------------------------------------------------
D----------------------------------------------------------------
A--3-3-3-33-1-1-0-00-5-5-55-4-4-44-3-3-33-2-2-22-----------------
E------------------------------------------------3-3-3-----------

G----------------------------------------------------------------
D----------------------------------------------------------------
A-----2-2-2-22-3-3-3-33-5-5----5---------------------------------
E--33-----------------------3---3--------------------------------

G----------------------------------------------------------------
D----------------------------------------------------------------
A--3-3-3-33-1-1-0-00-5-5-55-4-4-44-3-3-33-2-2-22-----------------
E------------------------------------------------3-3-3-----------

G----------------------------------------------------------------
D----------------------------------------------------------------
A-----2-2-2-22-3-3-3-33-5-5-5-55-7-7-7-77-8-8-8-10p8-------------
E--33------------------------------------------------------------

G----------------------------------------------------------------
D----------------------------------------------------------------
A--3-3-3-33-5-5-5-55-7-7-7-77-10---------------------------------
E--------------------------------3~------------------------------

Repeat
            
Submit corrections

comments powered by Disqus
↑ Back to top | Theme Song Bass for Sonic The Hedgehog Starlight Zone. Lyrics for acoustic guitar and electric guitar. 1 Tablatures and chords are parodies/interpretations of the original songs. You may use it for private study, scholarship, research or language learning purposes only