» » »

Theme Song, Samra Wana Lhassoude Tabs (ver.1)

Artists:  A B C D E F G H I J K L M N O P Q R S T U V W X Y Z # 

Samra Wana Lhassoude Tabs (ver.1)

Theme Song Tabs
 Rating:
4/5 (4 votes)
Samra Wana Lhassoude lessons Tabs too difficult? Try these video lessons and learn fast
                samra wana lhassoudeh
a ***in arabic song





E-------------------------------------------------------------|
B-3-3--3-3------------3-3--3-3--1-4-3-1--4-4--3-3--1---1-3----|
G----------3-1-3-1-0---------------------------------3-----3--|
D-------------------------------------------------------------|
A-------------------------------------------------------------|
E-------------------------------------------------------------|



E-------------------------------------------------------------|
B---------1---------------------------------------------------|
G-3-3-3-3---1-0-3-1-0-----------------------------------------|
D-------------------------------------------------------------| 
A-------------------------------------------------------------|
E-------------------------------------------------------------|
            
Submit corrections

comments powered by Disqus
↑ Back to top | Theme Song Tabs for Samra Wana Lhassoude. Lyrics for acoustic guitar and electric guitar. Tablatures and chords are parodies/interpretations of the original songs. You may use it for private study, scholarship, research or language learning purposes only