» » »

Theme Song, Oh Canada Bass tabs (ver.1)

Artists:  A B C D E F G H I J K L M N O P Q R S T U V W X Y Z # 

Oh Canada Bass tabs (ver.1)

Theme Song Tabs
 Rating:
4/5 (4 votes)
Oh Canada lessons Tabs too difficult? Try these video lessons and learn fast
                G-------------|-------------------|-------------|-------------------|
D-12-15-15----|----12-13-15-17----|----14-14-15-|-17-19-19-17-17-15-|
A----------13-|-15-------------15-|-17----------|-------------------|
E-------------|-------------------|-------------|-------------------|

G----------------|----------------|-------------------|
D----------------|-------15-------|-15-17-15-13-12-10-|
A-15-17-18-17-15-|-17/18----18-17-|-------------------|
E----------------|----------------|-------------------|

G----------------|----------------|-------------------------|
D----------------|----------------|-------15-15-14----14-15-|
A-15-17-18-17/15-|-17/18-20-18-17-|-17-15----------17-------|
E----------------|----------------|-------------------------|

G-------------|----------------|-------------|-------------------|
D----15-15----|-------17-17----|-15-16-16-17-|-------------------|
A-17-------13-|-18-18-------15-|-------------|-18-17-15-13-15-17-|
E-------------|----------------|-------------|-------------------|

G----15-15----|-------------14h15-15-|
D-15-------17-|----------15----------|
A-------------|-18-17-15-------------|
E-------------|----------------------|

I AM CANADIAN!!!
            
Submit corrections

comments powered by Disqus
↑ Back to top | Theme Song Bass for Oh Canada. Lyrics for acoustic guitar and electric guitar. Tablatures and chords are parodies/interpretations of the original songs. You may use it for private study, scholarship, research or language learning purposes only