» » »

Theme Song, O Canada Bass tabs (ver.2)

Artists:  A B C D E F G H I J K L M N O P Q R S T U V W X Y Z # 

O Canada Bass tabs (ver.2)

Theme Song Tabs
 Rating:
4/5 (4 votes)
O Canada lessons Tabs too difficult? Try these video lessons and learn fast
                "O Canada"

Modified from Adam Bishop's guitar version

G|----------------------0-2---------------0-----2-4-4-2-2-0--|
D|--2---5-5-------0-2-3-----0-----2---4-4--------------------|
A|----------3------------------------------------------------|
E|-----------------------------------------------------------|

G|------------------0---------0-2-0--------|
D|--0-2-3-2-0---2-3---3-2---3-------3-2-0--|
A|-----------------------------------------|
E|-----------------------------------------|

G|------------------0-----------0-0-----0----------|
D|--0-2-3-2-0---2-3---3-2---2-0-----3-2-----3-2-0--|
A|-------------------------------------------------|
E|-------------------------------------------------|

G|------------------2-2-------0---1-1-2---0------------------|
D|--2---5-5-----3-3-----0-------------------4-2-0-----2---4--|
A|----------3------------------------------------------------|
E|-----------------------------------------------------------|

G|--0---5-5-2---------0---4---5--|
D|--------------3-2-0------------|
A|-------------------------------|
E|-------------------------------|
            
Submit corrections

comments powered by Disqus
↑ Back to top | Theme Song Bass for O Canada. Lyrics for acoustic guitar and electric guitar. Tablatures and chords are parodies/interpretations of the original songs. You may use it for private study, scholarship, research or language learning purposes only