» » »

Theme Song, O Canada Bass tabs (ver.1)

Artists:  A B C D E F G H I J K L M N O P Q R S T U V W X Y Z # 

O Canada Bass tabs (ver.1)

Theme Song Tabs
 Rating:
4/5 (4 votes)
O Canada lessons Tabs too difficult? Try these video lessons and learn fast
                G----0-0---------0-2-----------0--2-4-4-2-2-0----------------0-----0-2-0-------------
D-2---------0-2-3-----0--2-4-4-----------------0-2-3-2-0-2-3---3-2-------3-2-0--0-2-3
A--------3---------------------------------------------------------------------------
E------------------------------------------------------------------------------------

G---------0---------0-0-------0----0-0------2-2----0-1-1-2--------------0-5-5-2------
D-2-0-2-3---3-2-2-0-----3-2-3----2--------3-----0----------3-2-0---0-2----------3-2-0
A--------------------------------------3-------------------------3-------------------
E------------------------------------------------------------------------------------

G-0-4-5
D------
A------
E------

That's it!  Hope this serves you well and O Canada
            
Submit corrections

comments powered by Disqus
↑ Back to top | Theme Song Bass for O Canada. Lyrics for acoustic guitar and electric guitar. Tablatures and chords are parodies/interpretations of the original songs. You may use it for private study, scholarship, research or language learning purposes only