» » »

Mission Impossible Bass tabs (ver.3)

Artists:  A B C D E F G H I J K L M N O P Q R S T U V W X Y Z # 

Mission Impossible Bass tabs (ver.3)

Theme Song
Rating:
0/5 (0 votes)

Hard to play? Try these video lessons and learn fast.
                G|-------------|-------------|
D|-------------|-------------|
A|---------2-3-|-------------|
E|-3-3-3-3-----|-3-3-3-3-2-3-|

G|-------------|-------------|
D|-------------|-------------|
A|---------2-3-|-------------|
E|-3-3-3-3-----|-3-3-3-3-2-3-|

G|---------------------------|
D|---------------------------|
A|-3-3-5--3-2-2-3-2-1-1-2-1-0|
E|---------------------------|

G|-------------|-------------|
D|-------------|-------------|
A|---------2-3-|-------------|
E|-3-3-3-3-----|-3-3-3-3-2-3-|

G|-------------|-------------|
D|---------2-3-|-------------|     - BassMonkey126
A|-3-3-3-3-----|-3-3-3-3-2-3-|
E|-------------|-------------|
            
Hard to play? Try these video lessons and learn fast. | Correct




comments powered by Disqus
↑ Back to top | Tablatures and chords are parodies/interpretations of the original songs. You may use it for private study, scholarship, research or language learning purposes only