» » »

Theme Song, Mission Impossible Bass tabs (ver.2)

Artists:  A B C D E F G H I J K L M N O P Q R S T U V W X Y Z # 

Mission Impossible Bass tabs (ver.2)

Theme Song Tabs
 Rating:
4/5 (4 votes)
Mission Impossible lessons Tabs too difficult? Try these video lessons and learn fast
                Mission Impossible
Standard Tuning (E, A, D, G)

G--------------------------------------
D--------------------------------------
A-------------9-11---------------------
E-11-11-11-11--------11-11-11-11--9-10-

G--------------------------------------
D--------------------------------------
A---------1-3--------------------------
E-3-3-3-3-------3-3-3-3--1-2-----------

You can play the same fingering on pretty much anywhere but this is what I think sounds best so give it a shot and rate it, this is my first tab.
            
Submit corrections

comments powered by Disqus
↑ Back to top | Theme Song Bass for Mission Impossible. Lyrics for acoustic guitar and electric guitar. Tablatures and chords are parodies/interpretations of the original songs. You may use it for private study, scholarship, research or language learning purposes only