» » »

Theme Song, Mission Impossible Bass tabs (ver.1)

Artists:  A B C D E F G H I J K L M N O P Q R S T U V W X Y Z # 

Mission Impossible Bass tabs (ver.1)

Theme Song Tabs
 Rating:
4/5 (4 votes)
Mission Impossible lessons Tabs too difficult? Try these video lessons and learn fast
                G----------------------------|
D----------------------------|
A---------1-3----------------|
E-3-3-3-3------3-3-3-3-1-2-3-|

G----------------------------|
D----------------------------|
A---------1-3----------------|
E-3-3-3-3------3-3-3-3-1-2-3-|

G----------------------------|
D----------------------------|
A---------1-3----------------|
E-3-3-3-3------3-3-3-3-1-2-3-|
            
Submit corrections

comments powered by Disqus
↑ Back to top | Theme Song Bass for Mission Impossible. Lyrics for acoustic guitar and electric guitar. Tablatures and chords are parodies/interpretations of the original songs. You may use it for private study, scholarship, research or language learning purposes only