» » »

Minas Tirith Bass tabs (ver.1)

Artists:  A B C D E F G H I J K L M N O P Q R S T U V W X Y Z # 

Minas Tirith Bass tabs (ver.1)

Theme Song
Rating:
0/5 (0 votes)

Tabs too difficult? Try these video lessons and learn fast.
                Lord of the rings
Return of the King – Minas Tirith

This is part of the new Lord of the rings soundtrack

|------------5-----------------------------|
|---7-5--5-7---7---5-7--12--14--15--17-19--|
|-5----------------------------------------|
|------------------------------------------|
  D A G  G A C A   G A  D   E   F   G  A 
  

|------------5---5-7--9--10--12--12-14-----|
|---7-5--5-7---7---------------------------|
|-5----------------------------------------|
|------------------------------------------|
  D A G  G A C A C D  E  F   G   G   A


|-15-10-15--10-14--19---19-19-21-----------|
|------------------------------------------|
|------------------------------------------|
|------------------------------------------|
  A# F  A#  F  A   D     D  D  E
            
Tabs too difficult? Try these video lessons and learn fast.




comments powered by Disqus
↑ Back to top | Tablatures and chords are parodies/interpretations of the original songs. You may use it for private study, scholarship, research or language learning purposes only