» » »

Michigan State Fight Song Bass tabs (ver.1)

Artists:  A B C D E F G H I J K L M N O P Q R S T U V W X Y Z # 

Michigan State Fight Song Bass tabs (ver.1)

Theme Song
Rating:
0/5 (0 votes)

Hard to play? Try these video lessons and learn fast.
                Standard Tuning E,A,D,G



G-------------------------2-----------0------0------
D-------------------0-2-4--323-0-0-2-3-0-2-3----2-0-
A-3-4-5-4-3-4-5-3-3-------------3------------------4
E---------------------------------------------------


G----------------------0-2-|-----------------------|
D--------------0-0-2-3-----|-----------0-0-1-2-----|
A-3-4-5-4-3-4-5------------|-0-1-0-1-0--4------3-0-|
E--------------------------|-----------------------|








this tab is 110% correct.
            
Hard to play? Try these video lessons and learn fast. | Correct




comments powered by Disqus
↑ Back to top | Tablatures and chords are parodies/interpretations of the original songs. You may use it for private study, scholarship, research or language learning purposes only