» » »

Mario Underground Bass tabs (ver.3)

Artists:  A B C D E F G H I J K L M N O P Q R S T U V W X Y Z # 

Mario Underground Bass tabs (ver.3)

Theme Song
Rating:
0/5 (0 votes)

Hard to play? Try these video lessons and learn fast.
                You can play this in regular or dropped tunning



G)-----------------------------------
D)-----------------------------------
A)------------------33-00-11-33-00-11
E)33-00-11-33-00-11------------------


You need to slap these to make it sound funky or you can play it normal.


for 5-string


E)-----------------88-55-66-88-55-66
B)88-55-66-88-55-66-----------------

or for a lower tone

E)------------------33-00-11-33-00-11
B)33-00-11-33-00-11------------------


thats is rate and correct this tab it should be 100 %
            
Hard to play? Try these video lessons and learn fast. | Correct




comments powered by Disqus
↑ Back to top | Tablatures and chords are parodies/interpretations of the original songs. You may use it for private study, scholarship, research or language learning purposes only