» » »

Mario Underground Bass tabs (ver.1)

Artists:  A B C D E F G H I J K L M N O P Q R S T U V W X Y Z # 

Mario Underground Bass tabs (ver.1)

Theme Song
Rating:
0/5 (0 votes)

Hard to play? Try these video lessons and learn fast.
                G|---5--2--3--------5--2--3--------------------------------|
D|---------------------------------5--2--3---------5--2--3-|
A|--3--0--1--------3--0--1---------------------------------|
E|--------------------------------3--0--1---------3--0--1--|

G----------------------------32-1--------------------------|
D------------------------432------1------------------------|
A-6543--6--5--------4--3------------2-1-0------------------|
E-------------4--3------------------------4----------------|

I couldn't find one that was exactly right so here's my best 
interpretation of it. Sounds right to me, but I didn't right 
the song so who knows. Once ya got it down it's sounds awesome 
if ya add some repeats and extra riffs to it. For example...

G|-----5--2--3--2--3----5--2--3--2--3-------------------------------------|
D|-----------------------------------------5--2--3--2--3-----5--2--3--2--3|
A|-33-3--0--1--0--1----3--0--1--0--1--------------------------------------|
E|-------------------------------------33-3--0--1--0--1-----3--0--1--0--1-|

So have fun and go nuts with this. Make Mario proud to run away from blood 
thirsty turtles while he listens to this tune which just magically 
seems to play in his background and come from out of no where.
            
Hard to play? Try these video lessons and learn fast. | Correct




comments powered by Disqus
↑ Back to top | Tablatures and chords are parodies/interpretations of the original songs. You may use it for private study, scholarship, research or language learning purposes only