» » »

Mario Theme-Underground Bass tabs (ver.1)

Artists:  A B C D E F G H I J K L M N O P Q R S T U V W X Y Z # 

Mario Theme-Underground Bass tabs (ver.1)

Theme Song
Rating:
0/5 (0 votes)

Hard to play? Try these video lessons and learn fast.
                Super Mario Bros. - Underground Theme
  
   Legend:
    RH - Right hand hammer-on
    LH - Left hand hammer-on
    *  - let note ring

  G---LH17--LH14--LH15--|
  D---------------------|
  A-RH15--RH12--RH13----| x2
  E---------------------|

  G---LH10--LH7---LH8---|
  D---------------------|
  A-RH8---RH5---RH6-----| x2
  E---------------------|

  Just finger the rest
  G------------------------------3-2-1--------------------------|
  D------------------------4-3-2-------1------------------------|
  A-6-5-4*--3-6-5-----4-3----------------2-1-0------------------|
  E---------------4-3--------------------------4----------------|
            
Hard to play? Try these video lessons and learn fast. | Correct




comments powered by Disqus
↑ Back to top | Tablatures and chords are parodies/interpretations of the original songs. You may use it for private study, scholarship, research or language learning purposes only