» » »

Theme Song, Mario Brothers Bass tabs (ver.1)

Artists:  A B C D E F G H I J K L M N O P Q R S T U V W X Y Z # 

Mario Brothers Bass tabs (ver.1)

Theme Song Tabs
Rating:
0/5 (0 votes)
Hard to play? Try these video lessons and learn fast.
                G---------------------9-10-7-9--------
D-------------------9----------7-9-8-7
A-10-7---8-10-9-8-7-------------------
E------8------------------------------


G-12-11-10-8-9-------------------12-11-10-8-9-17-17-17
D--------------------10----10-12----------------------
A--------------11-12----12----------------------------
E-----------------------------------------------------

G-12-11-10-8-9---------------------------
D--------------------10----10-12-13-12-10
A--------------11-12----12---------------
E----------------------------------------

G----------7-8-9------------------7-8-9*
D-10-10-10-------10-7----10-10-10-------
A---------------------10----------------
E---------------------------------------

G----------7-8-9---------10-10-10----10-12---
D-10-10-10-------10-7-------------10---------
A---------------------10-------------------10
E--------------------------------------------

DIE BOWSER!!!!! have fun! happy bassing! :)
            

comments powered by Disqus
↑ Back to top | Theme Song Bass for Mario Brothers. Lyrics for acoustic guitar and electric guitar. Tablatures and chords are parodies/interpretations of the original songs. You may use it for private study, scholarship, research or language learning purposes only