» » »

Theme Song, King Of The Hill Tabs (ver.1)

Artists:  A B C D E F G H I J K L M N O P Q R S T U V W X Y Z # 

King Of The Hill Tabs (ver.1)

Theme Song Tabs
 Rating:
4/5 (4 votes)
King Of The Hill lessons Tabs too difficult? Try these video lessons and learn fast
                Alright, I noticed that no one has the full version of the king of the hill theme, and I have all of it here except the solo, I’m 99% sure its right… enjoy. Oh, its drop D too folks.
-INTRO-
E--------------------------------------------------------------------
B--------------------------------------------------------------------
G--------------------------------------------------------------------
D-0-0-0-4-0-0-5-9-7-0-0-0-4-5-4-2-4-2-0-0-0-4-0-0-5-9-7
A-0-0-0-4-0-0-5-9-7-0-0-0-4-5-4-2-4-2-0-0-0-4-0-0-5-9-7
D-0-0-0-4-0-0-5-9-7-0-0-0-4-5-4-2-4-2-0-0-0-4-0-0-5-9-7

E--------------------------------------------------------------------
B--------------------------------------------------------------------
G--------------------------------------------------------------------
D-12-12-9-9-7-5-4-2-4-5-4-2-0--------------------------------
A-12-12-9-9-7-5-4-2-4-5-4-2-0--------------------------------
D-12-12-9-9-7-5-4-2-4-5-4-2-0--------------------------------
-INTERLUDE PART- (repeat x1)
E--------------------------------------------------------------------
B--------------------------------------------------------------------
G--------------------------------------------------------------------
D-9—9—9—9—4—4—4—4-5-5-5-5-7-7-7-7--------------
A-9—9—9—9—4—4—4—4-5-5-5-5-7-7-7-7--------------
D-9—9—9—9—4—4—4—4-5-5-5-5-7-7-7-7--------------
Play intro again.
            
Submit corrections

comments powered by Disqus
↑ Back to top | Theme Song Tabs for King Of The Hill. Lyrics for acoustic guitar and electric guitar. Tablatures and chords are parodies/interpretations of the original songs. You may use it for private study, scholarship, research or language learning purposes only